ISO-10303-21;
HEADER;
FILE_DESCRIPTION (( 'STEP AP203' ),
    '1' );
FILE_NAME ('10×ª½Ó»·.STEP',
    '2020-08-27T09:37:14',
    ( 'Windows ÓÃ»§' ),
    ( '' ),
    'SwSTEP 2.0',
    'SolidWorks 2016',
    '' );
FILE_SCHEMA (( 'CONFIG_CONTROL_DESIGN' ));
ENDSEC;

DATA;
#1 = ADVANCED_FACE ( 'NONE', ( #347, #258 ), #318, .T. ) ;
#2 = DIRECTION ( 'NONE',  ( 0.0000000000000000000, 0.0000000000000000000, 1.000000000000000000 ) ) ;
#3 = ORIENTED_EDGE ( 'NONE', *, *, #218, .T. ) ;
#4 = ORIENTED_EDGE ( 'NONE', *, *, #153, .F. ) ;
#5 = PERSON_AND_ORGANIZATION ( #240, #183 ) ;
#6 = DIRECTION ( 'NONE',  ( 1.000000000000000000, -0.0000000000000000000, -0.0000000000000000000 ) ) ;
#7 = CC_DESIGN_PERSON_AND_ORGANIZATION_ASSIGNMENT ( #342, #208, ( #191 ) ) ;
#8 = CARTESIAN_POINT ( 'NONE',  ( 28.50000000000000000, 0.0000000000000000000, -1.734723475976810200E-015 ) ) ;
#9 = DIRECTION ( 'NONE',  ( 1.000000000000000000, 0.0000000000000000000, 0.0000000000000000000 ) ) ;
#10 = CARTESIAN_POINT ( 'NONE',  ( 17.50000000000000000, 0.0000000000000000000, -43.00000000000000000 ) ) ;
#11 = ORIENTED_EDGE ( 'NONE', *, *, #218, .F. ) ;
#12 = CARTESIAN_POINT ( 'NONE',  ( 16.49999999999999600, 0.0000000000000000000, -43.00000000000000000 ) ) ;
#13 = AXIS2_PLACEMENT_3D ( 'NONE', #272, #173, #226 ) ;
#14 = CARTESIAN_POINT ( 'NONE',  ( 15.50000000000000000, 0.0000000000000000000, -45.00000000000000000 ) ) ;
#15 = DIRECTION ( 'NONE',  ( 0.0000000000000000000, 0.0000000000000000000, -1.000000000000000000 ) ) ;
#16 = FACE_OUTER_BOUND ( 'NONE', #222, .T. ) ;
#17 = EDGE_LOOP ( 'NONE', ( #79 ) ) ;
#18 = EDGE_LOOP ( 'NONE', ( #296 ) ) ;
#19 = LOCAL_TIME ( 17, 37, 14.00000000000000000, #322 ) ;
#20 =( GEOMETRIC_REPRESENTATION_CONTEXT ( 3 ) GLOBAL_UNCERTAINTY_ASSIGNED_CONTEXT ( ( #25 ) ) GLOBAL_UNIT_ASSIGNED_CONTEXT ( ( #67, #66, #180 ) ) REPRESENTATION_CONTEXT ( 'NONE', 'WORKASPACE' ) );
#21 = APPROVAL_ROLE ( '' ) ;
#22 = PLANE ( 'NONE',  #128 ) ;
#23 = AXIS2_PLACEMENT_3D ( 'NONE', #116, #34, #2 ) ;
#24 = CIRCLE ( 'NONE', #213, 42.00000000000000000 ) ;
#25 = UNCERTAINTY_MEASURE_WITH_UNIT (LENGTH_MEASURE( 1.000000000000000100E-005 ), #67, 'distance_accuracy_value', 'NONE');
#26 = PRODUCT_DEFINITION ( 'Î´Öª', '', #37, #107 ) ;
#27 = ORIENTED_EDGE ( 'NONE', *, *, #174, .F. ) ;
#28 = CALENDAR_DATE ( 2020, 27, 8 ) ;
#29 = DIRECTION ( 'NONE',  ( 0.0000000000000000000, 0.0000000000000000000, 1.000000000000000000 ) ) ;
#30 = ADVANCED_FACE ( 'NONE', ( #239, #225 ), #40, .T. ) ;
#31 = AXIS2_PLACEMENT_3D ( 'NONE', #247, #90, #193 ) ;
#32 = CARTESIAN_POINT ( 'NONE',  ( 17.50000000000000000, 0.0000000000000000000, -1.734723475976810200E-015 ) ) ;
#33 = DIRECTION ( 'NONE',  ( 0.0000000000000000000, 0.0000000000000000000, 1.000000000000000000 ) ) ;
#34 = DIRECTION ( 'NONE',  ( -1.000000000000000000, 0.0000000000000000000, 0.0000000000000000000 ) ) ;
#35 = EDGE_LOOP ( 'NONE', ( #87 ) ) ;
#36 = CARTESIAN_POINT ( 'NONE',  ( -60.00000000000000000, 0.0000000000000000000, 0.0000000000000000000 ) ) ;
#37 = PRODUCT_DEFINITION_FORMATION_WITH_SPECIFIED_SOURCE ( 'ÈÎºÎ', '', #191, .NOT_KNOWN. ) ;
#38 = CARTESIAN_POINT ( 'NONE',  ( 28.50000000000000000, 0.0000000000000000000, 42.00000000000000000 ) ) ;
#39 = AXIS2_PLACEMENT_3D ( 'NONE', #60, #57, #305 ) ;
#40 = CONICAL_SURFACE ( 'NONE', #184, 45.00000000000000000, 0.7853981633974447300 ) ;
#41 = DATE_AND_TIME ( #47, #113 ) ;
#42 = PERSON_AND_ORGANIZATION ( #240, #183 ) ;
#43 = CARTESIAN_POINT ( 'NONE',  ( 28.50000000000000000, 0.0000000000000000000, 0.0000000000000000000 ) ) ;
#44 = CARTESIAN_POINT ( 'NONE',  ( 15.50000000000000000, 0.0000000000000000000, 0.0000000000000000000 ) ) ;
#45 = FACE_OUTER_BOUND ( 'NONE', #210, .T. ) ;
#46 = EDGE_LOOP ( 'NONE', ( #136 ) ) ;
#47 = CALENDAR_DATE ( 2020, 27, 8 ) ;
#48 = AXIS2_PLACEMENT_3D ( 'NONE', #125, #145, #61 ) ;
#49 = EDGE_LOOP ( 'NONE', ( #319 ) ) ;
#50 = LOCAL_TIME ( 17, 37, 14.00000000000000000, #127 ) ;
#51 = APPROVAL ( #182, 'Î´Ö¸¶¨' ) ;
#52 = FACE_BOUND ( 'NONE', #94, .T. ) ;
#53 = EDGE_LOOP ( 'NONE', ( #345 ) ) ;
#54 = AXIS2_PLACEMENT_3D ( 'NONE', #144, #120, #203 ) ;
#55 = DIRECTION ( 'NONE',  ( 0.0000000000000000000, 0.0000000000000000000, -1.000000000000000000 ) ) ;
#56 = ADVANCED_FACE ( 'NONE', ( #86, #103 ), #22, .F. ) ;
#57 = DIRECTION ( 'NONE',  ( 1.000000000000000000, 0.0000000000000000000, 0.0000000000000000000 ) ) ;
#58 = PERSON_AND_ORGANIZATION ( #240, #183 ) ;
#59 = ADVANCED_FACE ( 'NONE', ( #220, #45 ), #161, .F. ) ;
#60 = CARTESIAN_POINT ( 'NONE',  ( 16.50000000000000000, 0.0000000000000000000, 0.0000000000000000000 ) ) ;
#61 = DIRECTION ( 'NONE',  ( 0.0000000000000000000, 0.0000000000000000000, 1.000000000000000000 ) ) ;
#62 = AXIS2_PLACEMENT_3D ( 'NONE', #8, #6, #223 ) ;
#63 = FACE_BOUND ( 'NONE', #313, .T. ) ;
#64 = ORIENTED_EDGE ( 'NONE', *, *, #89, .F. ) ;
#65 = CYLINDRICAL_SURFACE ( 'NONE', #246, 45.00000000000000000 ) ;
#66 =( NAMED_UNIT ( * ) PLANE_ANGLE_UNIT ( ) SI_UNIT ( $, .RADIAN. ) );
#67 =( LENGTH_UNIT ( ) NAMED_UNIT ( * ) SI_UNIT ( .MILLI., .METRE. ) );
#68 = CARTESIAN_POINT ( 'NONE',  ( 16.50000000000000000, 0.0000000000000000000, 0.0000000000000000000 ) ) ;
#69 = APPLICATION_CONTEXT ( 'configuration controlled 3d designs of mechanical parts and assemblies' ) ;
#70 = VERTEX_POINT ( 'NONE', #273 ) ;
#71 = AXIS2_PLACEMENT_3D ( 'NONE', #241, #248, #171 ) ;
#72 = CC_DESIGN_APPROVAL ( #51, ( #37 ) ) ;
#73 = CIRCLE ( 'NONE', #62, 42.00000000000000000 ) ;
#74 = DATE_TIME_ROLE ( 'creation_date' ) ;
#75 = ORIENTED_EDGE ( 'NONE', *, *, #78, .F. ) ;
#76 = DATE_AND_TIME ( #158, #232 ) ;
#77 = CARTESIAN_POINT ( 'NONE',  ( -60.00000000000000000, 0.0000000000000000000, 0.0000000000000000000 ) ) ;
#78 = EDGE_CURVE ( 'NONE', #100, #100, #83, .T. ) ;
#79 = ORIENTED_EDGE ( 'NONE', *, *, #163, .F. ) ;
#80 = ORIENTED_EDGE ( 'NONE', *, *, #108, .T. ) ;
#81 = DATE_AND_TIME ( #337, #50 ) ;
#82 = DIRECTION ( 'NONE',  ( -1.000000000000000000, 0.0000000000000000000, 0.0000000000000000000 ) ) ;
#83 = CIRCLE ( 'NONE', #308, 45.00000000000000000 ) ;
#84 = APPROVAL_DATE_TIME ( #315, #186 ) ;
#85 = ADVANCED_BREP_SHAPE_REPRESENTATION ( '10×ª½Ó»·', ( #212, #224 ), #20 ) ;
#86 = FACE_OUTER_BOUND ( 'NONE', #98, .T. ) ;
#87 = ORIENTED_EDGE ( 'NONE', *, *, #174, .T. ) ;
#88 = VERTEX_POINT ( 'NONE', #175 ) ;
#89 = EDGE_CURVE ( 'NONE', #167, #167, #288, .T. ) ;
#90 = DIRECTION ( 'NONE',  ( -1.000000000000000000, -0.0000000000000000000, -0.0000000000000000000 ) ) ;
#91 = PLANE ( 'NONE',  #23 ) ;
#92 = CARTESIAN_POINT ( 'NONE',  ( 30.50000000000000000, 0.0000000000000000000, 45.00000000000000000 ) ) ;
#93 = DIRECTION ( 'NONE',  ( 0.0000000000000000000, 0.0000000000000000000, -1.000000000000000000 ) ) ;
#94 = EDGE_LOOP ( 'NONE', ( #205 ) ) ;
#95 = CC_DESIGN_PERSON_AND_ORGANIZATION_ASSIGNMENT ( #5, #152, ( #37 ) ) ;
#96 = CARTESIAN_POINT ( 'NONE',  ( 30.00000000000000000, 0.0000000000000000000, -45.00000000000000000 ) ) ;
#97 = DIRECTION ( 'NONE',  ( -1.000000000000000000, -0.0000000000000000000, -0.0000000000000000000 ) ) ;
#98 = EDGE_LOOP ( 'NONE', ( #149 ) ) ;
#99 = EDGE_LOOP ( 'NONE', ( #231 ) ) ;
#100 = VERTEX_POINT ( 'NONE', #96 ) ;
#101 = CARTESIAN_POINT ( 'NONE',  ( -60.00000000000000000, 0.0000000000000000000, 0.0000000000000000000 ) ) ;
#102 = PERSON_AND_ORGANIZATION_ROLE ( 'classification_officer' ) ;
#103 = FACE_BOUND ( 'NONE', #172, .T. ) ;
#104 = FACE_OUTER_BOUND ( 'NONE', #46, .T. ) ;
#105 = EDGE_LOOP ( 'NONE', ( #75 ) ) ;
#106 = VERTEX_POINT ( 'NONE', #339 ) ;
#107 = DESIGN_CONTEXT ( 'detailed design', #181, 'design' ) ;
#108 = EDGE_CURVE ( 'NONE', #70, #70, #24, .T. ) ;
#109 = ORIENTED_EDGE ( 'NONE', *, *, #196, .F. ) ;
#110 = PERSON_AND_ORGANIZATION ( #240, #183 ) ;
#111 = CIRCLE ( 'NONE', #54, 44.50000000000000000 ) ;
#112 = ADVANCED_FACE ( 'NONE', ( #63, #141 ), #114, .T. ) ;
#113 = LOCAL_TIME ( 17, 37, 14.00000000000000000, #268 ) ;
#114 = PLANE ( 'NONE',  #297 ) ;
#115 = ADVANCED_FACE ( 'NONE', ( #214, #104 ), #299, .F. ) ;
#116 = CARTESIAN_POINT ( 'NONE',  ( 5.204170427930419700E-015, 0.0000000000000000000, 0.0000000000000000000 ) ) ;
#117 = PERSON_AND_ORGANIZATION ( #240, #183 ) ;
#118 = DIRECTION ( 'NONE',  ( 1.000000000000000000, -0.0000000000000000000, -0.0000000000000000000 ) ) ;
#119 = EDGE_CURVE ( 'NONE', #325, #325, #204, .T. ) ;
#120 = DIRECTION ( 'NONE',  ( -1.000000000000000000, 0.0000000000000000000, 0.0000000000000000000 ) ) ;
#121 = CARTESIAN_POINT ( 'NONE',  ( 7.000000000000000000, 0.0000000000000000000, 0.0000000000000000000 ) ) ;
#122 = EDGE_LOOP ( 'NONE', ( #11 ) ) ;
#123 = FACE_OUTER_BOUND ( 'NONE', #53, .T. ) ;
#124 = CARTESIAN_POINT ( 'NONE',  ( 15.50000000000000000, 0.0000000000000000000, 0.0000000000000000000 ) ) ;
#125 = CARTESIAN_POINT ( 'NONE',  ( 28.50000000000000000, 0.0000000000000000000, 0.0000000000000000000 ) ) ;
#126 = DATE_TIME_ROLE ( 'classification_date' ) ;
#127 = COORDINATED_UNIVERSAL_TIME_OFFSET ( 8, 0, .AHEAD. ) ;
#128 = AXIS2_PLACEMENT_3D ( 'NONE', #43, #290, #154 ) ;
#129 = APPLICATION_PROTOCOL_DEFINITION ( 'international standard', 'config_control_design', 1994, #181 ) ;
#130 = CC_DESIGN_APPROVAL ( #134, ( #26 ) ) ;
#131 = CIRCLE ( 'NONE', #71, 39.50000000000000000 ) ;
#132 = VERTEX_POINT ( 'NONE', #14 ) ;
#133 = EDGE_CURVE ( 'NONE', #179, #179, #274, .T. ) ;
#134 = APPROVAL ( #284, 'Î´Ö¸¶¨' ) ;
#135 = EDGE_CURVE ( 'NONE', #88, #88, #266, .T. ) ;
#136 = ORIENTED_EDGE ( 'NONE', *, *, #153, .T. ) ;
#137 = SHAPE_DEFINITION_REPRESENTATION ( #281, #85 ) ;
#138 = PERSON_AND_ORGANIZATION ( #240, #183 ) ;
#139 = CARTESIAN_POINT ( 'NONE',  ( 30.00000000000000000, 0.0000000000000000000, 0.0000000000000000000 ) ) ;
#140 = AXIS2_PLACEMENT_3D ( 'NONE', #68, #97, #309 ) ;
#141 = FACE_OUTER_BOUND ( 'NONE', #122, .T. ) ;
#142 = ORIENTED_EDGE ( 'NONE', *, *, #163, .T. ) ;
#143 = CC_DESIGN_PERSON_AND_ORGANIZATION_ASSIGNMENT ( #138, #102, ( #291 ) ) ;
#144 = CARTESIAN_POINT ( 'NONE',  ( 30.50000000000000000, 0.0000000000000000000, 0.0000000000000000000 ) ) ;
#145 = DIRECTION ( 'NONE',  ( 1.000000000000000000, -0.0000000000000000000, -0.0000000000000000000 ) ) ;
#146 = DIRECTION ( 'NONE',  ( 1.000000000000000000, 0.0000000000000000000, 0.0000000000000000000 ) ) ;
#147 = CARTESIAN_POINT ( 'NONE',  ( 28.50000000000000000, 0.0000000000000000000, 0.0000000000000000000 ) ) ;
#148 = EDGE_LOOP ( 'NONE', ( #109 ) ) ;
#149 = ORIENTED_EDGE ( 'NONE', *, *, #327, .T. ) ;
#150 = MECHANICAL_CONTEXT ( 'NONE', #69, 'mechanical' ) ;
#151 = EDGE_LOOP ( 'NONE', ( #3 ) ) ;
#152 = PERSON_AND_ORGANIZATION_ROLE ( 'creator' ) ;
#153 = EDGE_CURVE ( 'NONE', #283, #283, #73, .T. ) ;
#154 = DIRECTION ( 'NONE',  ( 0.0000000000000000000, 0.0000000000000000000, 1.000000000000000000 ) ) ;
#155 = CC_DESIGN_PERSON_AND_ORGANIZATION_ASSIGNMENT ( #117, #257, ( #26 ) ) ;
#156 = FACE_BOUND ( 'NONE', #289, .T. ) ;
#157 = ORIENTED_EDGE ( 'NONE', *, *, #228, .F. ) ;
#158 = CALENDAR_DATE ( 2020, 27, 8 ) ;
#159 = DIRECTION ( 'NONE',  ( 0.0000000000000000000, 0.0000000000000000000, -1.000000000000000000 ) ) ;
#160 = DIRECTION ( 'NONE',  ( 0.0000000000000000000, 0.0000000000000000000, 1.000000000000000000 ) ) ;
#161 = CYLINDRICAL_SURFACE ( 'NONE', #250, 43.00000000000000000 ) ;
#162 = CC_DESIGN_DATE_AND_TIME_ASSIGNMENT ( #207, #126, ( #291 ) ) ;
#163 = EDGE_CURVE ( 'NONE', #199, #199, #215, .T. ) ;
#164 = DIRECTION ( 'NONE',  ( 0.0000000000000000000, 0.0000000000000000000, -1.000000000000000000 ) ) ;
#165 = EDGE_LOOP ( 'NONE', ( #282 ) ) ;
#166 = ADVANCED_FACE ( 'NONE', ( #52, #16 ), #91, .T. ) ;
#167 = VERTEX_POINT ( 'NONE', #10 ) ;
#168 = CARTESIAN_POINT ( 'NONE',  ( 17.50000000000000000, 0.0000000000000000000, -1.734723475976810200E-015 ) ) ;
#169 = DIRECTION ( 'NONE',  ( 1.000000000000000000, 0.0000000000000000000, 0.0000000000000000000 ) ) ;
#170 = CC_DESIGN_DATE_AND_TIME_ASSIGNMENT ( #41, #74, ( #26 ) ) ;
#171 = DIRECTION ( 'NONE',  ( 8.783410004945858700E-017, 0.0000000000000000000, -1.000000000000000000 ) ) ;
#172 = EDGE_LOOP ( 'NONE', ( #4 ) ) ;
#173 = DIRECTION ( 'NONE',  ( 1.000000000000000000, -0.0000000000000000000, 0.0000000000000000000 ) ) ;
#174 = EDGE_CURVE ( 'NONE', #295, #295, #131, .T. ) ;
#175 = CARTESIAN_POINT ( 'NONE',  ( 30.50000000000000000, 0.0000000000000000000, 43.00000000000000000 ) ) ;
#176 = CARTESIAN_POINT ( 'NONE',  ( 5.000000000000008000, 0.0000000000000000000, -39.50000000000000000 ) ) ;
#177 = FACE_OUTER_BOUND ( 'NONE', #165, .T. ) ;
#178 = ORIENTED_EDGE ( 'NONE', *, *, #89, .T. ) ;
#179 = VERTEX_POINT ( 'NONE', #254 ) ;
#180 =( NAMED_UNIT ( * ) SI_UNIT ( $, .STERADIAN. ) SOLID_ANGLE_UNIT ( ) );
#181 = APPLICATION_CONTEXT ( 'configuration controlled 3d designs of mechanical parts and assemblies' ) ;
#182 = APPROVAL_STATUS ( 'not_yet_approved' ) ;
#183 = ORGANIZATION ( 'Î´Ö¸¶¨', 'Î´Ö¸¶¨', '' ) ;
#184 = AXIS2_PLACEMENT_3D ( 'NONE', #263, #82, #160 ) ;
#185 = APPROVAL_STATUS ( 'not_yet_approved' ) ;
#186 = APPROVAL ( #185, 'Î´Ö¸¶¨' ) ;
#187 = CYLINDRICAL_SURFACE ( 'NONE', #334, 43.00000000000000000 ) ;
#188 = AXIS2_PLACEMENT_3D ( 'NONE', #217, #197, #164 ) ;
#189 = ORIENTED_EDGE ( 'NONE', *, *, #196, .T. ) ;
#190 = VERTEX_POINT ( 'NONE', #12 ) ;
#191 = PRODUCT ( '10×ª½Ó»·', '10×ª½Ó»·', '', ( #150 ) ) ;
#192 = FACE_OUTER_BOUND ( 'NONE', #99, .T. ) ;
#193 = DIRECTION ( 'NONE',  ( 0.0000000000000000000, 0.0000000000000000000, -1.000000000000000000 ) ) ;
#194 = ORIENTED_EDGE ( 'NONE', *, *, #133, .F. ) ;
#195 = VERTEX_POINT ( 'NONE', #229 ) ;
#196 = EDGE_CURVE ( 'NONE', #190, #190, #336, .T. ) ;
#197 = DIRECTION ( 'NONE',  ( -1.000000000000000000, -0.0000000000000000000, -0.0000000000000000000 ) ) ;
#198 = DIRECTION ( 'NONE',  ( -1.000000000000000000, 0.0000000000000000000, 0.0000000000000000000 ) ) ;
#199 = VERTEX_POINT ( 'NONE', #338 ) ;
#200 = DIRECTION ( 'NONE',  ( -1.000000000000000000, 0.0000000000000000000, 0.0000000000000000000 ) ) ;
#201 = ADVANCED_FACE ( 'NONE', ( #156, #234 ), #323, .F. ) ;
#202 = DIRECTION ( 'NONE',  ( 1.000000000000000000, 0.0000000000000000000, 0.0000000000000000000 ) ) ;
#203 = DIRECTION ( 'NONE',  ( 0.0000000000000000000, 0.0000000000000000000, 1.000000000000000000 ) ) ;
#204 = CIRCLE ( 'NONE', #265, 38.00000000000000000 ) ;
#205 = ORIENTED_EDGE ( 'NONE', *, *, #119, .T. ) ;
#206 = DIRECTION ( 'NONE',  ( 0.0000000000000000000, 0.0000000000000000000, 1.000000000000000000 ) ) ;
#207 = DATE_AND_TIME ( #271, #264 ) ;
#208 = PERSON_AND_ORGANIZATION_ROLE ( 'design_owner' ) ;
#209 = FACE_OUTER_BOUND ( 'NONE', #18, .T. ) ;
#210 = EDGE_LOOP ( 'NONE', ( #64 ) ) ;
#211 = FACE_OUTER_BOUND ( 'NONE', #243, .T. ) ;
#212 = MANIFOLD_SOLID_BREP ( '1', #267 ) ;
#213 = AXIS2_PLACEMENT_3D ( 'NONE', #168, #118, #29 ) ;
#214 = FACE_OUTER_BOUND ( 'NONE', #49, .T. ) ;
#215 = CIRCLE ( 'NONE', #31, 38.00000000000000000 ) ;
#216 = CC_DESIGN_PERSON_AND_ORGANIZATION_ASSIGNMENT ( #58, #316, ( #37 ) ) ;
#217 = CARTESIAN_POINT ( 'NONE',  ( 17.50000000000000000, 0.0000000000000000000, 0.0000000000000000000 ) ) ;
#218 = EDGE_CURVE ( 'NONE', #106, #106, #111, .T. ) ;
#219 = DIRECTION ( 'NONE',  ( 1.000000000000000000, -0.0000000000000000000, 0.0000000000000000000 ) ) ;
#220 = FACE_OUTER_BOUND ( 'NONE', #314, .T. ) ;
#221 = DIRECTION ( 'NONE',  ( 0.0000000000000000000, 0.0000000000000000000, -1.000000000000000000 ) ) ;
#222 = EDGE_LOOP ( 'NONE', ( #194 ) ) ;
#223 = DIRECTION ( 'NONE',  ( 0.0000000000000000000, 0.0000000000000000000, 1.000000000000000000 ) ) ;
#224 = AXIS2_PLACEMENT_3D ( 'NONE', #310, #206, #343 ) ;
#225 = FACE_BOUND ( 'NONE', #151, .T. ) ;
#226 = DIRECTION ( 'NONE',  ( 0.0000000000000000000, 0.0000000000000000000, -1.000000000000000000 ) ) ;
#227 = ADVANCED_FACE ( 'NONE', ( #242, #209 ), #187, .F. ) ;
#228 = EDGE_CURVE ( 'NONE', #132, #132, #312, .T. ) ;
#229 = CARTESIAN_POINT ( 'NONE',  ( 28.50000000000000000, 0.0000000000000000000, 43.00000000000000000 ) ) ;
#230 = ORIENTED_EDGE ( 'NONE', *, *, #135, .T. ) ;
#231 = ORIENTED_EDGE ( 'NONE', *, *, #119, .F. ) ;
#232 = LOCAL_TIME ( 17, 37, 14.00000000000000000, #333 ) ;
#233 = AXIS2_PLACEMENT_3D ( 'NONE', #121, #9, #280 ) ;
#234 = FACE_OUTER_BOUND ( 'NONE', #148, .T. ) ;
#235 = CC_DESIGN_APPROVAL ( #186, ( #291 ) ) ;
#236 = DIRECTION ( 'NONE',  ( 0.0000000000000000000, 0.0000000000000000000, -1.000000000000000000 ) ) ;
#237 = CIRCLE ( 'NONE', #48, 43.00000000000000000 ) ;
#238 = APPROVAL_DATE_TIME ( #81, #134 ) ;
#239 = FACE_OUTER_BOUND ( 'NONE', #105, .T. ) ;
#240 = PERSON ( 'Î´Ö¸¶¨', 'Î´Ö¸¶¨', 'Î´Ö¸¶¨', ('Î´Ö¸¶¨'), ('Î´Ö¸¶¨'), ('Î´Ö¸¶¨') ) ;
#241 = CARTESIAN_POINT ( 'NONE',  ( 5.000000000000004400, 0.0000000000000000000, 0.0000000000000000000 ) ) ;
#242 = FACE_OUTER_BOUND ( 'NONE', #344, .T. ) ;
#243 = EDGE_LOOP ( 'NONE', ( #178 ) ) ;
#244 = APPROVAL_PERSON_ORGANIZATION ( #110, #134, #340 ) ;
#245 = DIRECTION ( 'NONE',  ( -1.000000000000000000, 0.0000000000000000000, 0.0000000000000000000 ) ) ;
#246 = AXIS2_PLACEMENT_3D ( 'NONE', #101, #256, #93 ) ;
#247 = CARTESIAN_POINT ( 'NONE',  ( 7.000000000000000000, 0.0000000000000000000, 0.0000000000000000000 ) ) ;
#248 = DIRECTION ( 'NONE',  ( 1.000000000000000000, 0.0000000000000000000, 0.0000000000000000000 ) ) ;
#249 = FACE_BOUND ( 'NONE', #332, .T. ) ;
#250 = AXIS2_PLACEMENT_3D ( 'NONE', #77, #292, #159 ) ;
#251 = PLANE ( 'NONE',  #13 ) ;
#252 = CC_DESIGN_SECURITY_CLASSIFICATION ( #291, ( #37 ) ) ;
#253 = FACE_OUTER_BOUND ( 'NONE', #17, .T. ) ;
#254 = CARTESIAN_POINT ( 'NONE',  ( 0.0000000000000000000, 0.0000000000000000000, -39.50000000000000000 ) ) ;
#255 = AXIS2_PLACEMENT_3D ( 'NONE', #298, #245, #33 ) ;
#256 = DIRECTION ( 'NONE',  ( 1.000000000000000000, 0.0000000000000000000, 0.0000000000000000000 ) ) ;
#257 = PERSON_AND_ORGANIZATION_ROLE ( 'creator' ) ;
#258 = FACE_BOUND ( 'NONE', #35, .T. ) ;
#259 = APPROVAL_PERSON_ORGANIZATION ( #42, #186, #21 ) ;
#260 = AXIS2_PLACEMENT_3D ( 'NONE', #44, #317, #236 ) ;
#261 = FACE_OUTER_BOUND ( 'NONE', #275, .T. ) ;
#262 = FACE_OUTER_BOUND ( 'NONE', #324, .T. ) ;
#263 = CARTESIAN_POINT ( 'NONE',  ( 29.99999999999999600, 0.0000000000000000000, 0.0000000000000000000 ) ) ;
#264 = LOCAL_TIME ( 17, 37, 14.00000000000000000, #346 ) ;
#265 = AXIS2_PLACEMENT_3D ( 'NONE', #328, #270, #55 ) ;
#266 = CIRCLE ( 'NONE', #255, 43.00000000000000000 ) ;
#267 = CLOSED_SHELL ( 'NONE', ( #306, #1, #30, #335, #112, #166, #227, #277, #56, #201, #115, #59, #330 ) ) ;
#268 = COORDINATED_UNIVERSAL_TIME_OFFSET ( 8, 0, .AHEAD. ) ;
#269 = PRODUCT_RELATED_PRODUCT_CATEGORY ( 'detail', '', ( #191 ) ) ;
#270 = DIRECTION ( 'NONE',  ( 1.000000000000000000, 0.0000000000000000000, 0.0000000000000000000 ) ) ;
#271 = CALENDAR_DATE ( 2020, 27, 8 ) ;
#272 = CARTESIAN_POINT ( 'NONE',  ( 17.50000000000000000, 0.0000000000000000000, 43.00000000000000000 ) ) ;
#273 = CARTESIAN_POINT ( 'NONE',  ( 17.50000000000000000, 0.0000000000000000000, 42.00000000000000000 ) ) ;
#274 = CIRCLE ( 'NONE', #349, 39.50000000000000000 ) ;
#275 = EDGE_LOOP ( 'NONE', ( #301 ) ) ;
#276 = CYLINDRICAL_SURFACE ( 'NONE', #321, 39.50000000000000000 ) ;
#277 = ADVANCED_FACE ( 'NONE', ( #192, #253 ), #293, .F. ) ;
#278 = DIRECTION ( 'NONE',  ( 0.0000000000000000000, 0.0000000000000000000, -1.000000000000000000 ) ) ;
#279 = CARTESIAN_POINT ( 'NONE',  ( 0.0000000000000000000, 0.0000000000000000000, -38.00000000000000000 ) ) ;
#280 = DIRECTION ( 'NONE',  ( 0.0000000000000000000, 0.0000000000000000000, -1.000000000000000000 ) ) ;
#281 = PRODUCT_DEFINITION_SHAPE ( 'NONE', 'NONE',  #26 ) ;
#282 = ORIENTED_EDGE ( 'NONE', *, *, #78, .T. ) ;
#283 = VERTEX_POINT ( 'NONE', #38 ) ;
#284 = APPROVAL_STATUS ( 'not_yet_approved' ) ;
#285 = SECURITY_CLASSIFICATION_LEVEL ( 'unclassified' ) ;
#286 = AXIS2_PLACEMENT_3D ( 'NONE', #32, #198, #329 ) ;
#287 = APPLICATION_PROTOCOL_DEFINITION ( 'international standard', 'config_control_design', 1994, #69 ) ;
#288 = CIRCLE ( 'NONE', #188, 43.00000000000000000 ) ;
#289 = EDGE_LOOP ( 'NONE', ( #142 ) ) ;
#290 = DIRECTION ( 'NONE',  ( -1.000000000000000000, 0.0000000000000000000, 0.0000000000000000000 ) ) ;
#291 = SECURITY_CLASSIFICATION ( '', '', #285 ) ;
#292 = DIRECTION ( 'NONE',  ( 1.000000000000000000, 0.0000000000000000000, 0.0000000000000000000 ) ) ;
#293 = CYLINDRICAL_SURFACE ( 'NONE', #233, 38.00000000000000000 ) ;
#294 = ORIENTED_EDGE ( 'NONE', *, *, #135, .F. ) ;
#295 = VERTEX_POINT ( 'NONE', #176 ) ;
#296 = ORIENTED_EDGE ( 'NONE', *, *, #327, .F. ) ;
#297 = AXIS2_PLACEMENT_3D ( 'NONE', #92, #219, #303 ) ;
#298 = CARTESIAN_POINT ( 'NONE',  ( 30.50000000000000000, 0.0000000000000000000, 0.0000000000000000000 ) ) ;
#299 = CYLINDRICAL_SURFACE ( 'NONE', #286, 42.00000000000000000 ) ;
#300 = DIRECTION ( 'NONE',  ( 0.0000000000000000000, 0.0000000000000000000, -1.000000000000000000 ) ) ;
#301 = ORIENTED_EDGE ( 'NONE', *, *, #228, .T. ) ;
#302 = APPROVAL_PERSON_ORGANIZATION ( #320, #51, #341 ) ;
#303 = DIRECTION ( 'NONE',  ( 0.0000000000000000000, 0.0000000000000000000, -1.000000000000000000 ) ) ;
#304 = AXIS2_PLACEMENT_3D ( 'NONE', #124, #146, #278 ) ;
#305 = DIRECTION ( 'NONE',  ( 0.0000000000000000000, 0.0000000000000000000, -1.000000000000000000 ) ) ;
#306 = ADVANCED_FACE ( 'NONE', ( #261, #177 ), #65, .T. ) ;
#307 = EDGE_LOOP ( 'NONE', ( #157 ) ) ;
#308 = AXIS2_PLACEMENT_3D ( 'NONE', #139, #326, #300 ) ;
#309 = DIRECTION ( 'NONE',  ( -8.068481283613055800E-017, 0.0000000000000000000, -1.000000000000000000 ) ) ;
#310 = CARTESIAN_POINT ( 'NONE',  ( 0.0000000000000000000, 0.0000000000000000000, 0.0000000000000000000 ) ) ;
#311 = DIRECTION ( 'NONE',  ( 0.0000000000000000000, 0.0000000000000000000, 1.000000000000000000 ) ) ;
#312 = CIRCLE ( 'NONE', #304, 45.00000000000000000 ) ;
#313 = EDGE_LOOP ( 'NONE', ( #230 ) ) ;
#314 = EDGE_LOOP ( 'NONE', ( #189 ) ) ;
#315 = DATE_AND_TIME ( #28, #19 ) ;
#316 = PERSON_AND_ORGANIZATION_ROLE ( 'design_supplier' ) ;
#317 = DIRECTION ( 'NONE',  ( 1.000000000000000000, 0.0000000000000000000, 0.0000000000000000000 ) ) ;
#318 = CONICAL_SURFACE ( 'NONE', #260, 45.00000000000000000, 0.4825132950224770800 ) ;
#319 = ORIENTED_EDGE ( 'NONE', *, *, #108, .F. ) ;
#320 = PERSON_AND_ORGANIZATION ( #240, #183 ) ;
#321 = AXIS2_PLACEMENT_3D ( 'NONE', #36, #202, #15 ) ;
#322 = COORDINATED_UNIVERSAL_TIME_OFFSET ( 8, 0, .AHEAD. ) ;
#323 = CONICAL_SURFACE ( 'NONE', #39, 43.00000000000000000, 0.4844779290370239100 ) ;
#324 = EDGE_LOOP ( 'NONE', ( #27 ) ) ;
#325 = VERTEX_POINT ( 'NONE', #279 ) ;
#326 = DIRECTION ( 'NONE',  ( -1.000000000000000000, -0.0000000000000000000, -0.0000000000000000000 ) ) ;
#327 = EDGE_CURVE ( 'NONE', #195, #195, #237, .T. ) ;
#328 = CARTESIAN_POINT ( 'NONE',  ( 0.0000000000000000000, 0.0000000000000000000, 0.0000000000000000000 ) ) ;
#329 = DIRECTION ( 'NONE',  ( 0.0000000000000000000, 0.0000000000000000000, 1.000000000000000000 ) ) ;
#330 = ADVANCED_FACE ( 'NONE', ( #211, #249 ), #251, .F. ) ;
#331 = CARTESIAN_POINT ( 'NONE',  ( 0.0000000000000000000, 0.0000000000000000000, 0.0000000000000000000 ) ) ;
#332 = EDGE_LOOP ( 'NONE', ( #80 ) ) ;
#333 = COORDINATED_UNIVERSAL_TIME_OFFSET ( 8, 0, .AHEAD. ) ;
#334 = AXIS2_PLACEMENT_3D ( 'NONE', #147, #200, #311 ) ;
#335 = ADVANCED_FACE ( 'NONE', ( #123, #262 ), #276, .T. ) ;
#336 = CIRCLE ( 'NONE', #140, 43.00000000000000000 ) ;
#337 = CALENDAR_DATE ( 2020, 27, 8 ) ;
#338 = CARTESIAN_POINT ( 'NONE',  ( 7.000000000000000000, 0.0000000000000000000, -38.00000000000000000 ) ) ;
#339 = CARTESIAN_POINT ( 'NONE',  ( 30.50000000000000000, 0.0000000000000000000, 44.50000000000000000 ) ) ;
#340 = APPROVAL_ROLE ( '' ) ;
#341 = APPROVAL_ROLE ( '' ) ;
#342 = PERSON_AND_ORGANIZATION ( #240, #183 ) ;
#343 = DIRECTION ( 'NONE',  ( 1.000000000000000000, 0.0000000000000000000, 0.0000000000000000000 ) ) ;
#344 = EDGE_LOOP ( 'NONE', ( #294 ) ) ;
#345 = ORIENTED_EDGE ( 'NONE', *, *, #133, .T. ) ;
#346 = COORDINATED_UNIVERSAL_TIME_OFFSET ( 8, 0, .AHEAD. ) ;
#347 = FACE_OUTER_BOUND ( 'NONE', #307, .T. ) ;
#348 = APPROVAL_DATE_TIME ( #76, #51 ) ;
#349 = AXIS2_PLACEMENT_3D ( 'NONE', #331, #169, #221 ) ;
ENDSEC;
END-ISO-10303-21;
